Climate Killer + Psycho Killer / Talking Heads & David Byrne & XOES


Share

Play >> Climate Killer + Psycho Killer .mp3

*Climate Killer* by XOEarth Stele is a parody of *Psycho Killer* by Talking Heads, David Byrne, Chris Frantz and Tina Weymouth.

Our ailing planet could suffer a deadly ecological system[s] failure within three years - say some climate scientists. Help our planet stay healthy so we can keep having fun. Work ecologically. Travel ecologically. Eat ecologically. Donate ecologically. Play ecologically.

I [can] see the Earth die but it's a fact
A7 G
I sell deadly products and then I relax
A7 G
I sleep just fine while my Earth's on fire
A7 G
Don't leave me, I need another buyer

F G cho
Climate killer, qu'est- ce que c'est
[Psycho killer, qu'est-ce que c'est]
Am
Hot ha ha ha ha ha ha ha ha ha hot
F G C
Burn bur bur bur bur bur bur burn a-way Ah oohhh
F G
Climate killer, qu'est-ce que c'est
[Psycho killer, qu'est-ce que c'est]
Am
Hot ha ha ha ha ha ha ha ha ha ha hot
F G C
Burn bur bur bur bur burn burn burn a-way Ah oohhh
F G
Oh oh oh oooooooh Die ay ay ay ay ay ay ooooh

A7 G X2
or
A A7
e||--5-5-5-5-5-5-5---|--5-5-5-5-5-5--8-8-8-8-8-8-|
B||--5-5-5-5-5-5-5---|--5-5-5-5-5-5--7-7-7-7-7-7-|
G||--6-6-6-6-6-6-6---|--6-6-6-6-6-6--8-8-8-8-8-8-|
D||--7-7-7-7-7-7-7---|--7-7-7-7-7-7--------------| x2
A||------------------|---------------------------|
E||------------------|---------------------------|

A7 G v2
My products cause extinction, but can you resist [this]
A7 G
They hurt [the] Earth a lot, but see the [sales] price on everything
A7 G
Buy my [green] bling today, my lips are sealed
A7 G
Pay the reaper once, why not pay again

F G ch
Climate killer, qu'est-ce que c'est
[Psycho killer, qu'est-ce que c'est]
Am
Hot ha ha ha ha ha ha ha ha ha hot
F G C
Burn bur bur bur bur bur bur burn a-way Ah oohhh
F G
Climate killer, qu'est-ce que c'est
[Psycho killer, qu'est-ce que c'est]
Am
Hot ha ha ha ha ha ha ha ha ha hot
F G C
Burn bur bur bur bur bur bur burn a-way Ah oohhh
F G
Oh oh oh oooooooh Die ay ay ay ay

( first two lines) bridge
Bm G
e||------------------|------------------------------|
B||------------------|------------------------------|
G||------------------|------------------------------|
D||-4-2-0------------|--5-4-2-0-5-4-2-0-------------|
A||--------4-2-0-2-4-|------------------------------|
E||------------------|------------------------------|

Bm G
Ce que je vends, cette année (What I sell, this year)
Bm C
Tue la terre, prochain année (l'année prochaine) (Will kill the earth next year)
A
Réalisant notre espoir (Fulfilling my hope)
G
Mourir dans la gloire matérielle (To die in material glory)
A G
Okay
A G
Die yay yay yay yay yay yay die
A G
I may be vain, but I'm not blind
A G
I hurt people with my products to buy

F G ch
Climate killer, qu'est-ce que c'est
[Psycho killer, qu'est-ce que c'est]
Am
Hot ha ha ha ha ha ha ha ha ha hot
F G C
Burn bur bur bur bur bur burn a-way oooh oh oh

F G
Climate killer, qu'est-ce que c'est
[Psycho killer, qu'est-ce que c'est]
Am
Hot ha ha ha ha ha ha ha ha ha hot
F G C
Burn bu bu bu bu bu burn a-way oooh oh oh
F G
Oh oh oh oooooooh Die ay ay ay ay ay ay

[Buy goodbye die ,] buy then die, next
~

intro:
e||-------------------|---------------------------|
B||-------------------|---------------------------|
G||-------------------|---------------------------|
D||-------------------|---------------------------|
A||-------------------|---------------------------|
E||--5x--5x--5x--5x---|--5x--5x--5-0-3------------|
repeat 6x

add on third pass
G/A
e||-------------------|---------------------------|
B||---12--------------|---------------------------|
G||---12--------------|---------------------------|
D||---12--------------|---------------------------|
A||---12--------------|---------------------------|
E||-------------------|---------------------------|

add on fourth pass
G6/A
e||---12--------------|---------------------------|
B||---12--------------|---------------------------|
G||---12--------------|---------------------------|
D||---12--------------|---------------------------|
A||-------------------|---------------------------|
E||-------------------|---------------------------|

add on fifth and sixth pass
A A7
e||--5-5-5-5-5-5-5-5---|--5-5-5-5-5--8-8-8-8-8-8-|
B||--5-5-5-5-5-5-5-5---|--5-5-5-5-5--7-7-7-7-7-7-|
G||--5-6-6-6-6-6-6-6---|--6-6-6-6-6--8-8-8-8-8-8-|
D||--5-7-7-7-7-7-7-7---|--7-7-7-7-7--------------|
A||--------------------|-------------------------|
E||--------------------|-------------------------|

A7 G vs1
e||------0-------0----|-------0------------------|
B||---2------------2--|----------2------0--------|
G||--------0--0-------|----0------------0--------|
D||-------------------|-------------2------------|
A||-0-----------------|--0-----------------------| x each line
E||-------------------|--------------------------|

~
End: Layer these in order depending on how many players you have - (recording goes 25 measures )
A A A A A A A Em G
e||--0--0------0--0----|--0--0----0---0--3-------|
B||--2--2-0----2--2-0--|--2--2-0--2---0--3-------|
G||--2--2-0----2--2-0--|--2--2-0--2---0--0-------|
D||--2--2-0----2--2-0--|--2--2-0--2---2--0-------|
A||--0--0------0--0----|--0--0----0---2--3-------|
E||--------------------|--------------0--2-------|
E||--5--5------5--5----|--5--5----5---0--3-------|

A A7
e||--5-5-5-5-5-5-5-5---|--5-5-5-5-5--8-8-8-8-8-8-|
B||--5-5-5-5-5-5-5-5---|--5-5-5-5-5--7-7-7-7-7-7-|
G||--5-6-6-6-6-6-6-6---|--6-6-6-6-6--8-8-8-8-8-8-|
D||--5-7-7-7-7-7-7-7---|--7-7-7-7-7--------------|
A||--------------------|-------------------------|
E||--------------------|-------------------------|

e||--------------------|--------------------------|
B||--------------------|--------------------------|
G||--------------------|--------------------------|
D||--------------------|--------------------------|
A||--------------------|--------------------------|
E||--5--5------5--5----|--5--5----5---0--3--------|

Chorus Alt/Bass Part first line
F G
e||---------------------------------|
B||---------------------------------|
G||---------------------------------|
D||-3-------3-------5-------7-------|
A||-----5-3-----5-3-----7-5-----7-5-|
E||---------------------------------|
fin

Artist: Talking Heads
Song: Psycho Killer
ALBUM: Appetite for Destruction
YEAR: 1977

CAPO: 0
TUNING: Standard
TEMPO: 115

Add more chord diagrams to the list:
Bm
E |---|-2-|---|---|---| o
B |---|---|---|---|---| o
G |---|---|---|-4-|---| o
D |---|---|---|---|---| o
A |---|-1-|---|---|---| o
E |---|---|---|---|---| x

G6/A
E |---|---|---|---|---| o
B |---|---|---|---|---| o
G |---|---|---|---|---| o
D |---|---|---|---|---| o
A |---|---|---|---|---| o
E |---|---|---|---|---| x

G/A
E |---|---|-1-|---|---| o
B |---|---|---|---|---| o
G |---|---|---|---|---| o
D |---|---|---|---|---| o
A |---|---|---|---|---| o
E |---|---|---|---|---| x

*
*
*
*
*
*
*
*

*Psycho Killer* by David Byrne, Chris Frantz and Tina Weymouth

A7 G
I can't seem to face up to the facts
A7 G
I'm tense and nervous and I can't relax
A7 G
I can't sleep cause my bed's on fire
A7 G
Don't touch me I'm a real live wire

F G cho
Psycho killer, qu'est-ce que c'est
Am
Fa fa fa fa fa fa fa fa fa fa better
F G C
Run run run run run run run run a-way Ah oohhh
F G
Psycho killer, qu'est-ce que c'est
Am
Fa fa fa fa fa fa fa fa fa fa better
F G C
Run run run run run run run run a-way
F G
Oh oh oh oooooooh Ay ay ay ay ay ay ay ooooh

A7 G X2
or
A A7
e||--5-5-5-5-5-5-5---|--5-5-5-5-5-5--8-8-8-8-8-8-|
B||--5-5-5-5-5-5-5---|--5-5-5-5-5-5--7-7-7-7-7-7-|
G||--6-6-6-6-6-6-6---|--6-6-6-6-6-6--8-8-8-8-8-8-|
D||--7-7-7-7-7-7-7---|--7-7-7-7-7-7--------------| x2
A||------------------|---------------------------|
E||------------------|---------------------------|

A7 G v2
You start a conversation, you can't even finish it
A7 G
You're talking a lot, but you're not saying anything
A7 G
When I have nothing to say, my lips are sealed
A7 G
Say something once, why say it again

F G ch
Psycho killer, qu'est-ce que c'est
Am
Fa fa fa fa fa fa fa fa fa fa better
F G C
Run run run run run run run run a-way oh oh oh
F G
Psycho killer, qu'est-ce que c'est
Am
Fa fa fa fa fa fa fa fa fa fa better
F G C
Run run run run run run run run a-way
F G
Oh oh oh oooooooh Ay ay ay ay ay

( first two lines) bridge
Bm G
e||------------------|------------------------------|
B||------------------|------------------------------|
G||------------------|------------------------------|
D||-4-2-0------------|--5-4-2-0-5-4-2-0-------------|
A||--------4-2-0-2-4-|------------------------------|
E||------------------|------------------------------|

Bm G
Ce que j'ai fais, ce soir là (What I did that night)
Bm C
Ce qu'elle a dit, ce soir-là (What she said that night)
A
Réalisant mon espoir (Realizing my hopes)
G
Je me lance vers la gloire (I rush towards glory)
A G
Okay
A G
Yay yay yay yay yay yay yay yah
A G
We are vain and we are blind
A G
I hate people when they're not polite

F G ch
Psycho killer, qu'est-ce que c'est
Am
Fa fa fa fa fa fa fa fa fa fa better
F G C
Run run run run run run run run a-way oooh oh oh
F G
Psycho killer, qu'est-ce que c'est
Am
Fa fa fa fa fa fa fa fa fa fa better
F G C
Run run run run run run run run a-way
F G
Oh oh oh oooooooh Ay ay ay ay ay ay ay

~

intro:
e||-------------------|---------------------------|
B||-------------------|---------------------------|
G||-------------------|---------------------------|
D||-------------------|---------------------------|
A||-------------------|---------------------------|
E||--5x--5x--5x--5x---|--5x--5x--5-0-3------------|
repeat 6x

add on third pass
G/A
e||-------------------|---------------------------|
B||---12--------------|---------------------------|
G||---12--------------|---------------------------|
D||---12--------------|---------------------------|
A||---12--------------|---------------------------|
E||-------------------|---------------------------|

add on fourth pass
G6/A
e||---12--------------|---------------------------|
B||---12--------------|---------------------------|
G||---12--------------|---------------------------|
D||---12--------------|---------------------------|
A||-------------------|---------------------------|
E||-------------------|---------------------------|

add on fifth and sixth pass
A A7
e||--5-5-5-5-5-5-5-5---|--5-5-5-5-5--8-8-8-8-8-8-|
B||--5-5-5-5-5-5-5-5---|--5-5-5-5-5--7-7-7-7-7-7-|
G||--5-6-6-6-6-6-6-6---|--6-6-6-6-6--8-8-8-8-8-8-|
D||--5-7-7-7-7-7-7-7---|--7-7-7-7-7--------------|
A||--------------------|-------------------------|
E||--------------------|-------------------------|

---VERSE 1---
A7 G
e||------0-------0----|-------0------------------|
B||---2------------2--|----------2------0--------|
G||--------0--0-------|----0------------0--------|
D||-------------------|-------------2------------|
A||-0-----------------|--0-----------------------| x each line
E||-------------------|--------------------------|

~
End: Layer these in order depending on how many players you have - (recording goes 25 measures )
A A A A A A A Em G
e||--0--0------0--0----|--0--0----0---0--3-------|
B||--2--2-0----2--2-0--|--2--2-0--2---0--3-------|
G||--2--2-0----2--2-0--|--2--2-0--2---0--0-------|
D||--2--2-0----2--2-0--|--2--2-0--2---2--0-------|
A||--0--0------0--0----|--0--0----0---2--3-------|
E||--------------------|--------------0--2-------|
E||--5--5------5--5----|--5--5----5---0--3-------|

A A7
e||--5-5-5-5-5-5-5-5---|--5-5-5-5-5--8-8-8-8-8-8-|
B||--5-5-5-5-5-5-5-5---|--5-5-5-5-5--7-7-7-7-7-7-|
G||--5-6-6-6-6-6-6-6---|--6-6-6-6-6--8-8-8-8-8-8-|
D||--5-7-7-7-7-7-7-7---|--7-7-7-7-7--------------|
A||--------------------|-------------------------|
E||--------------------|-------------------------|

e||--------------------|--------------------------|
B||--------------------|--------------------------|
G||--------------------|--------------------------|
D||--------------------|--------------------------|
A||--------------------|--------------------------|
E||--5--5------5--5----|--5--5----5---0--3--------|

Chorus Alt/Bass Part first line
F G
e||---------------------------------|
B||---------------------------------|
G||---------------------------------|
D||-3-------3-------5-------7-------|
A||-----5-3-----5-3-----7-5-----7-5-|
E||---------------------------------|
fin

Artist: Talking Heads
Song: Psycho Killer
ALBUM: Appetite for Destruction
YEAR: 1977

CAPO: 0
TUNING: Standard
TEMPO: 115

Add more chord diagrams to the list:
Bm
E |---|-2-|---|---|---| o
B |---|---|---|---|---| o
G |---|---|---|-4-|---| o
D |---|---|---|---|---| o
A |---|-1-|---|---|---| o
E |---|---|---|---|---| x

G6/A
E |---|---|---|---|---| o
B |---|---|---|---|---| o
G |---|---|---|---|---| o
D |---|---|---|---|---| o
A |---|---|---|---|---| o
E |---|---|---|---|---| x

G/A
E |---|---|-1-|---|---| o
B |---|---|---|---|---| o
G |---|---|---|---|---| o
D |---|---|---|---|---| o
A |---|---|---|---|---| o
E |---|---|---|---|---| x

z
z
z
z
z
z
z
z

*Psycho Killer* by David Byrne, Chris Frantz and Tina Weymouth [Ultimate Guitar - diff version]

[Intro]
Starts with bass, playing this riff twice
e|-----------------------------|
B|-----------------------------|
G|-----------------------------|
D|-----------------------------|
A|--0--0--0--0--0--0--0--------|
E|-----------------------0--3--|
(Then comes seven beats of A and one beat of G, played twice.)
(You can emphasize these any way you like, really--I usually play)
(the A's as A lock-step march, then do kind of jangle with the G.)

[A] [G]
[A] [G]

(Hit the G's hard, then immediately get soft on the A's)

[A] I can't seem to face up to the facts [G] [Verse]
[A] I'm tense and nervous and I can't relax [G]
[A] I can't sleep cause my bed's on fire [G]
[A] Don't touch me I'm A real live wire [G]

[Chorus]

[F] Psycho kil[G]ler, qu'est-ce que [C]'est
[Am] Fa fa fa fa fa fa fa fa fa better
[F] Run run run [G] run run run run A[C]way
[F] Psycho kil[G]ler, qu'est-ce que [C]'est
[Am] Fa fa fa fa fa fa fa fa fa better
[F] Run run run [G] run run run run A[C]way
Oh oh oh [F] oh [G] ay ay ay ay ay

[Instrumental]

[A] [G]
[A] [G]

[A] You start A conversation, you can't even finish it [G]
[A] You're talking A lot, but you're not saying anything [G]
[A] When I have nothing to say, my lips are sealed [G]
[A] Say something once, why say it again [G]

[Chorus]

[F] Psycho kil[G]ler, qu'est-ce que [C]'est
[Am] Fa fa fa fa fa fa fa fa fa better
[F] Run run run [G] run run run run A[C]way
[F] Psycho kil[G]ler, qu'est-ce que [C]'est
[Am] Fa fa fa fa fa fa fa fa fa better
[F] Run run run [G] run run run run A[C]way
Oh oh oh [F] oh [G] ay ay ay ay ay

(There is A four-note descending bass riff over the [ch]Bm[/ch] and C, played
twice in each key, but I try to keep it simple during periods when
my hands and mouth have to move at the same time)

[Interlude]

[[ch]Bm[/ch]] Ce que j'ai fait, ce soir [C] la (What I did that night)
[[ch]Bm[/ch]] Ce qu'elle A dit, ce soir [C] la (What she said that night)
[A] Realisant mon espoir (Realizing my hopes)
[G] Je me lance, vers la gloire (I rush towards glory)

(Back to hitting G's hard.)

[A] Okay [G]
[A] Ay ay ay ay ay ay ay ay [G]
[A] We are vain and we are blind [G]
[A] I hate people when they're not polite [G]

[Chorus]

[F] Psycho kil[G]ler, qu'est-ce que [C]'est
[Am] Fa fa fa fa fa fa fa fa fa better
[F] Run run run [G] run run run run A[C]way
[F] Psycho kil[G]ler, qu'est-ce que [C]'est
[Am] Fa fa fa fa fa fa fa fa fa better
[F] Run run run [G] run run run run A[C]way
Oh oh oh [F] oh [G] ay ay ay ay ay\

[Instrumental]

[A] [G]
[A] [G]

[Alternative Verse]

[A] I passed out hours ago [G]
[A] I'm sadder than you'll ever know [G]
[A] I close my eyes on this sunny day [G]
[A] Say something once, why say it again [G]

~~~~

Musicians :: Record this song and we'll add it here, and maybe on our home page or environmental songs page.
Artists :: Do a video, art, dance or media for this song and we'll add it here, and maybe on our home page or environmental songs page.
Fans :: Donate $1 or more to sponsor a better version of this song. Donate $44 or more to get a shared copyright certificate for this song or your choice of one of our other environmental songs.

Share

Leave a comment